Psalm 69 Tablature


These are NOT official tabs! All tabs are provided by members of our community. If you see any problems with the tabs we have presented please send us your version! You can PM them directly to me on our Forum under the username Krowe. I will go over them as well as a few other people and if we agree with your changes we will post them and credit you with it. Also, if you can tab out any of the various other instruments used on Ministry albums (like keyboards, synths, drums, harmonica, mandolin, saxophone or whatever) please send those in as well! Eventually we plan to branch this out to cover as much tablature as we can get for the band and people who wish to play their material. If you want to quickly come back to the top of the page just click on a song title.


Psalm 69: The way to Succeed and to Suck Eggs
Psalm 69 Tablature

01. N.W.O    Guitar    Bass
02. Just One Fix    Guitar    Bass
03. TV II    Guitar    Bass
04. Hero    Guitar    Bass
05. Jesus Built My Hotrod    Guitar    Bass
06. Scarecrow    Guitar    Bass
07. Psalm 69    Guitar    Bass
08. Corrosion    Guitar    Bass
09. Grace    Guitar    Bass

Psalm 69 Guitar Tablature


===============================
01. NWO
===============================


===============================
02. JUST ONE FIX
===============================

Tuning : Standard E (E,A,D,G,B,E)
For all eight notes use downstroke picking, on sixteen notes
use alternative picking (only in intro start upstroke).
Tabbed by Anonymous

  Intro
   1   +   2   +   3   +   4   +
E|---------------------------------|
B|---------------------------------|
G|---------------------------------|
D|-7-8-----7-8-----7-8-----7-8-----|
A|-7-8-----7-8-----7-8-----7-8-----|
E|-5-6-----5-6-----5-6-----5-6-----|

  Main Riff
   1   +   2   +   3   +   4   +     1   +   2   +   3   +   4   +
E|---------------------------------|---------------------------------|
B|---------------------------------|---------------------------------|
G|---------------------------------|---------------------------------|
D|-5-----------2-------------------|-7---5-------8-------------------|
A|-5-----------2-------------------|-7---5-------8-------------------|
E|-3---0---0---0---0---0-0-0-0-0-0-|-5---3---0---6---0---0-0-0-0-0-0-|

  00:36 (gtr II)
   1   +   2   +   3   +   4   +     1   +   2   +   3   +   4   +   
E|---------------------------------|---------------------------------|
B|---------------------------------|---------------------------------|
G|-4-----------3-------------------|-9-----------8-------------------| x3
D|---------------------------------|---------------------------------|
A|---------------------------------|---------------------------------|
E|---------------------------------|---------------------------------|

   1   +   2   +   3   +   4   +
E|---------------------------------|
B|---------------------------------|
G|-9-------------------------------|
D|---------------------------------|
A|---------------------------------|
E|---------------------------------|

  02:31
   1   +   2   +   3   +   4   +     1   +   2   +   3   +   4   +
E|---------------------------------|---------------------------------|
B|---------------------------------|---------------------------------|
G|---------------------------------|---------------------------------|
D|-5-----------2-------------------|-----7---5-------8---------------|
A|-5-----------2-------------------|-----7---5-------8---------------|
E|-3---0---0---0---0---0---0---0---|-0---5---3---0---6---0---0---0---|

  03:00 (for the 4th time play just the 1st bar, then intro)
   1   +   2   +   3   +   4   +     1   +   2   +   3   +   4   +   
E|---------------------------------|---------------------------------|
B|---------------------------------|---------------------------------|
G|---------------------------------|---------------------------------|
D|-5-----------5-----------5-------|-----4-----------5-------4-------|
A|-5-----------5-----------5-------|-----4-----------5-------4-------|
E|-3---0---0---3---0---0---3---0---|-0---2---0---0---3---0---2---0---|
 |
 | Gtr II
 |  
E|-12----------12----------12------|-----12----------12------12------|
B|-15b17-------15b17-------15b17---|-----15b17-------15b17---15b17---|
G|---------------------------------|---------------------------------|
D|---------------------------------|---------------------------------|
A|---------------------------------|---------------------------------|
E|---------------------------------|---------------------------------|
  
 03:14
   1   +   2   +   3   +   4   +     1   +   2   +   3   +   4   +   
E|---------------------------------|---------------------------------|
B|---------------------------------|---------------------------------|
G|---------------------------------|---------------------------------|
D|-5-----------2-------------------|-7---5-------8-------------------|
A|-5-----------2-------------------|-7---5-------8-------------------|
E|-3---0-0-0-0-0---0-0-0-0-0-0-0-0-|-5---3---0-0-6---0-0-0-0-0-0-0-0-|
 |
 03:54 (Gtr II)
 |   1   +   2   +   3   +   4   +     1   +   2   +   3   +   4   +   
E|---------------------------------|---------------------------------|
B|---------------------------------|---------------------------------|
G|-----------------9-----------8---|---------7-----------------------|
D|---------7---9-----------9-------|-----9-----------8---7-----------|
A|-9---10--------------------------|-------------------------10--7---|
E|---------------------------------|---------------------------------|

===============================
03. TV II
===============================


===============================
04. HERO
===============================

Tuning : Standard E (E,A,D,G,B,E)
Play at eardrum-popping levels and play maniacally fast!  Rock on!
Well boys and girls, this here is my first tab.  I'd become exasperated at the 
fact that there is no tab here for "Hero" by Ministry, so I just strapped up and 
decided to do it myself.  I haven't included the solo; if you can get it, I'd be 
forever in your debt. He plays too fucking fast.  But the rest I've got down 
pretty good, you'll probably need to listen to it a few times to get the rythym 
down.  Enjoy, Ministry-heads.  AlJourgenson is a deity!
Tabbed by Rick Petkovsek

INTRO     Played very fast, 3 times           Fourth Time
e|-------|---------------------------------|--------------------------------|
B|-------|---------------------------------|--------------------------------|
G|-3-3-3-|---------------------------------|--------------------------------|
D|-1-1-1-|-------2-1-0-------2-1-0-----1-1-|-------2-1-0-------2-1-0----1-0-|
A|-------|-3-2-1-------3-2-1-------3-3-----|-3-2-1-------3-2-1-------3-3----|
E|—------|---------------------------------|--------------------------------|

MAIN RIFF  3 Times                      Fourth Time
e|-----------------------------------|-----------------------------------|
B|-----------------------------------|-----------------------------------|
G|--------------------------------7--|-----------------------------------|
D|----------5--------7--------8---5--|----------5--------7--------8-7----|
A|-0-0-0000-3-0-0000-5-0-0000-6-0----|-0-0-0000-3-0-0000-5-0-0000-6-5----|
E|-----------------------------------|-----------------------------------|

CHORUS ("Hurt, Fight!")                                     End with
e|---------------------------------------------------------|---------------|
B|---------------------------------------------------------|---------------|
G|---------------------------------------------------------|---------------|
D|-----------5-------------5-------------5-------------7---|--8--7---------|
A|-0-0-0-000-3-0-0-0-3-000-3-0-0-0-3-000-3-0-0-0-5-000-5-0-|--6--5---------|
E|---------------------------------------------------------|---------------|

AFTER SOLO
e|-------|-----------------|-----------------------------------------------|
B|-------|-----------------|-----------------------------------------------|
G|-------|-----------------|-----------------------------------------------|
D|-------|--------------5--|--------------5--------------------------------|
A|-6-5-3-|--0--3--5--6-----|--00-3--5--6-----------------------------------|
E|-------|-----------------|-----------------------------------------------|

OUTRO
e|-------------------------------------------------------------------------|
B|-------------------------------------------------------------------------|
G|-------------------------------------------------------------------------|
D|-------------------------------------------------------------------------|
A|--6-6-6-6-6-6-6-6--------------------------------------------------------|
E|-------------------------------------------------------------------------|

===============================
05. JESUS BUILT MY HOTROD
===============================


===============================
06. SCARECROW
===============================


===============================
07. PSALM 69
===============================


===============================
08. CORROSION
===============================


===============================
09. GRACE
===============================




Psalm 69 Bass Tablature


===============================
01. NWO
===============================


===============================
02. JUST ONE FIX
===============================


===============================
03. TV II
===============================


===============================
04. HERO
===============================

Tuning : Standard E (E,A,D,G)
Tabbed by Gila

    0:14    0:15                         x3   0:25
G |-------|---------------------------------|--------------------------------|
D |-------|---------------------------------|--------------------------------|
A |-6-6-6-|-4p3-0-6p5-0-4p3-0-6p5-0-3-4/6p5-|-4p3-0-6p5-0-4p3-0-6p5-0--6--5--|
E |-------|---------------------------------|--------------------------------|

    0:28                               x3   0:38
G |---------------------------------------|-----------------------------|
D |---------------------------------------|-----------------------------|
A |-0-0-0000-3-0-0000-5-0-0000-6-0-00-10\-|-\0-0000-3-0-0000-5-0000-6-5-|
E |---------------------------------------|-----------------------------|

    0:41                               x3   0:51
G |---------------------------------------|-----------------------------|
D |---------------------------------------|-----------------------------|
A |-0-0-0000-3-0-0000-5-0-0000-6-0-00-10\-|-\0-0000-3-0-0000-5-0000-6-5-|
E |---------------------------------------|-----------------------------|

    0:54                               x4   1:07        x3   1:12
G |---------------------------------------|----------------|----------------|
D |---------------------------------------|----------------|----------------|
A |-0-0-0000-3-0-0000-5-0-0000-6-0-00-10\-|-0-00-0-1-0-0-3-|-0-00-0-6-0-0-5-|
E |---------------------------------------|----------------|----------------|

    1:13        x3   1:18  
G |----------------|----------|
D |----------------|----------|
A |-0-00-0-1-0-0-3-|-0-00-6-5-|
E |----------------|----------|

    1:20                               x3   1:30
G |---------------------------------------|-----------------------------|
D |---------------------------------------|-----------------------------|
A |-0-0-0000-3-0-0000-5-0-0000-6-0-00-10\-|-\0-0000-3-0-0000-5-0000-6-5-|
E |---------------------------------------|-----------------------------|

    1:32                               x3   1:42
G |---------------------------------------|-----------------------------|
D |---------------------------------------|-----------------------------|
A |-0-0-0000-3-0-0000-5-0-0000-6-0-00-10\-|-\0-0000-3-0-0000-5-0000-6-5-|
E |---------------------------------------|-----------------------------|

    1:46                               x4   1:59        x3   2:04
G |---------------------------------------|----------------|----------------|
D |---------------------------------------|----------------|----------------|
A |-0-0-0000-3-0-0000-5-0-0000-6-0-00-10\-|-0-00-0-1-0-0-3-|-0-00-0-6-0-0-5-|
E |---------------------------------------|----------------|----------------|

    2:05         x3   2:10      2:11      2:12                               x3
G |----------------|----------|---------|---------------------------------------|
D |----------------|----------|---------|---------------------------------------|
A |-0-00-0-1-0-0-3-|-0-00-6-5-|-0h3-0h3-|---------------------------------------|
E |----------------|----------|---------|-0-0-0000-3-0-0000-5-0-0000-6-0-00-10\-|

    2:22
G |--------------------------------------------------------------------|
D |--------------------------------------------------------------------|
A |----------------------------6-5-3-0--3--5--6--10\0--0--3--5--6--10\-|
E |-0-0-0000-3-0-0000-5-0-0000-----------------------------------------|

    2:32                               x3   2:42
G |---------------------------------------|-----------------------------|
D |---------------------------------------|-----------------------------|
A |-0-0-0000-3-0-0000-5-0-0000-6-0-00-10\-|-\0-0000-3-0-0000-5-0000-6-5-|
E |---------------------------------------|-----------------------------|

    2:44                               x3   2:54
G |---------------------------------------|-----------------------------|
D |---------------------------------------|-----------------------------|
A |-0-0-0000-3-0-0000-5-0-0000-6-0-00-10\-|-\0-0000-3-0-0000-5-0000-6-5-|
E |---------------------------------------|-----------------------------|

    2:57                               x4   3:10        x3   3:15
G |---------------------------------------|----------------|----------------|
D |---------------------------------------|----------------|----------------|
A |-0-0-0000-3-0-0000-5-0-0000-6-0-00-10\-|-0-00-0-1-0-0-3-|-0-00-0-6-0-0-5-|
E |---------------------------------------|----------------|----------------|

    3:17        x3   3:22             3:23        x3   3:28  
G |----------------|----------------|----------------|--------------|
D |----------------|----------------|----------------|--------------|
A |-0-00-0-1-0-0-3-|-0-00-0-6-0-0-5-|-0-00-0-1-0-0-3-|-0-00-6-0-0-5-|
E |----------------|----------------|----------------|--------------|

    3:30        x3   3:35       3:36                              x3
G |----------------|----------|--------------------------------------------|
D |----------------|----------|--------------------------------------------|
A |-0-00-0-1-0-0-3-|-0-00-6-5-|-0-0-0000-3-0-0000-5-0-0000-6-0-00-10-------|
E |----------------|----------|--------------------------------------------|

    3:46
G |---------------------------------------|
D |---------------------------------------|
A |-0-0-0000-3-0-0000-5-0-00-666-6-6-6-6--|
E |---------------------------------------|

===============================
05. JESUS BUILT MY HOTROD
===============================


===============================
06. SCARECROW
===============================


===============================
07. PSALM 69
===============================

Tuning : Drop D (D,A,D,G)
Tabbed by Gila

    0:15          x7   1:49                                 x4
G |------------------|-----------------------------------------|
D |------------------|-----------------------------------------|
A |------------------|-----------------------------------------|
D |-0----0-0-0--6----|-0-0-0-0-0-0-0-0-0-0-0-0-0-0-0h5h6-0h5p3-|

    2:25               x3   2:32
G |-----------------------|-------------------------|
D |-----------------------|-------------------------|
A |-------------------444-|-------------------------|
D |-0-000-0-000-0-000-----|-0-000-0-000-0-000-0-000-|

    2:34               x3   2:41
G |-----------------------|----------------------------------------|
D |-----------------------|----------------------------------------|
A |-------------------444-|-------------------4444-4-4-4--4--4---4-|
D |-0-000-0-000-0-000-----|-0-000-0-000-0-000----------------------|

    2:60          x4   4:03                                 x4
G |------------------|-----------------------------------------|
D |------------------|-----------------------------------------|
A |------------------|-----------------------------------------|
D |-0----0-0-0--6----|-0-0-0-0-0-0-0-0-0-0-0-0-0-0-0h5h6-0h5p3-|

    4:34               x3   4:41
G |-----------------------|-------------------------|
D |-----------------------|-------------------------|
A |-------------------444-|-------------------------|
D |-0-000-0-000-0-000-----|-0-000-0-000-0-000-0-000-|

    4:43               x4   4:52         x7   5:08
G |-----------------------|-----------------|-----------------|
D |-----------------------|-----------------|-----------------|
A |-------------------444-|-555-444-333-----|-555-444-333-----|
D |-0-000-0-000-0-000-----|-------------666-|-------------6---|

===============================
08. CORROSION
===============================


===============================
09. GRACE
===============================

 


Page Last Edited on 2008-04-26 21:46:17 UTC CST (6793)