Dark Side Of The Spoon Tablature


These are NOT official tabs! All tabs are provided by members of our community. If you see any problems with the tabs we have presented please send us your version! You can PM them directly to me on our Forum under the username Krowe. I will go over them as well as a few other people and if we agree with your changes we will post them and credit you with it. Also, if you can tab out any of the various other instruments used on Ministry albums (like keyboards, synths, drums, harmonica, mandolin, saxophone or whatever) please send those in as well! Eventually we plan to branch this out to cover as much tablature as we can get for the band and people who wish to play their material. If you want to quickly come back to the top of the page just click on a song title.


Dark Side Of The Spoon
Dark Side Of The Spoon Tablature

01. Supermanic Soul    Guitar    Bass
02. Whip And Chain    Guitar    Bass
03. Bad Blood    Guitar    Bass
04. Eureka Pile    Guitar    Bass
05. Step    Guitar    Bass
06. Nursing Home    Guitar    Bass
07. Kaif    Guitar    Bass
08. Vex & Siolence    Guitar    Bass
09. 10/10    Guitar    Bass
10. Linda Summertime    Guitar    Bass

Dark Side Of The Spoon Guitar Tablature


===============================
01. SUPERMANIC SOUL
===============================


===============================
02. WHIP AND CHAIN
===============================


===============================
03. BAD BOOD
===============================


===============================
04. EUREKA PILE
===============================


===============================
05. STEP
===============================


===============================
06. NURSING HOME
===============================


===============================
07. KAIF
===============================


===============================
08. VEX & SIOLENCE
===============================


===============================
09. 10/10
===============================


===============================
10. LINDA SUMMERTIME
===============================

This is a vocal song only.



Dark Side Of The Spoon Bass Tablature


===============================
01. SUPERMANIC SOUL
===============================


===============================
02. WHIP AND CHAIN
===============================


===============================
03. BAD BLOOD
===============================


===============================
04. EUREKA PILE
===============================


===============================
05. STEP
===============================

Tuning : Standard E (E,A,D,G)
Tabbed by Gila

    0:06  x3   0:15    x1   0:18  x3   0:26    x1   0:29  x3
G |----------|------------|----------|------------|----------|
D |----------|------------|----------|------------|----------|
A |-7-8^---5-|-7-8^---5-5\|-7-8^---5-|-7-8^---5-5\|-7-8^---5-|
E |------7---|------7-----|------7---|------7-----|------7---|

    0:38  x4   0:43            x1   0:46                x1
G |----------|--------------------|------------------------|
D |----------|--------------------|------------------------|
A |---8^---5-|---55--55--------55-|---55-77-55-88-77-55----|
E |-7----7---|-77--77--77-55-77---|-77------------------55-|

    0:49           x1   0:52              x1   0:55             x1
G |-------------------|----------------------|---------------------|
D |-------------------|----------------------|---------------------|
A |---55--55--55------|---55-7888----55-7888-|---55--55------------|
E |-77--77--77--77-55-|-77--------77---------|-77--77--77-55-44-00-|

    0:58              x1   1:01              x1   1:04             x1
G |----------------------|----------------------|---------------------|
D |----------------------|----------------------|---------------------|
A |---55-7888----55-7888-|---55--55-88-77-55----|---55--55-88-77-55---|
E |-77--------77---------|-77--77------------55-|-77--77------------5-|

    1:07   x2   1:12    x2   1:19               x3   1:36            x1
G |-----------|------------|-----------------------|-----------------------------|
D |-3-3---3-3-|-3-3-3--3-3-|-----------------------|-----------------------------|
A |-2-2---2-2-|-3-2-2--2-2-|-7-8^--5---7-8^---5-5\-|-7-8^--5--7-8^---5-4-3-2-----|
E |-----------|------------|------7---------7------|------7--------7---------3-0-|

    1:42  x3   1:51    x1   1:54  x3   2:03   x3  2:06             x1
G |----------|------------|----------|----------|--------------------|
D |----------|------------|----------|----------|--------------------|
A |-7-8^---5-|-7-8^---5-5\|-7-8^---5-|-7-8^---5-|---55--55--------55-|
E |------7---|------7-----|------7---|------7---|-77--77--77-55-77---|

    2:09                x1   2:12           x1   2:15              x1
G |------------------------|-------------------|----------------------|
D |------------------------|-------------------|----------------------|
A |---55-77-55-88-77-55----|---55--55--55------|---55-7888----55-7888-|
E |-77------------------55-|-77--77--77--77-55-|-77--------77---------|

    2:18             x1   2:21              x1   2:24              x1
G |---------------------|----------------------|----------------------|
D |---------------------|----------------------|----------------------|
A |---55--55------------|---55-7888----55-7888-|---55--55-88-77-55----|
E |-77--77--77-55-44-00-|-77--------77---------|-77--77------------55-|

    2:27             x1   2:30   x2   2:36    x2   2:42                     x1
G |---------------------|-----------|------------|-----------------------------|
D |---------------------|-3-3---3-3-|-3-3-3--3-3-|-----------------------------|
A |---55--55-88-77-55---|-2-2---2-2-|-3-2-2--2-2-|-7-8^--5--7-8^---5-4-3-2-----|
E |-77--77------------5-|-----------|------------|------7--------7---------3-0-|

    2:48 x1   2:51            x1     2:54                       x1   2:57
G |---------|-----------10---------|-------------------------------|-----------|
D |---------|-------------8-x-9----|-----------9-9-999-9-8-7-------|-----------|
A |-7-8^--5-|-7-8^--5\----------7\-|-/7-8^--5----------------9-8-7-|-7-8^--5-5-|
E |------7--|------7---------------|-------7-----------------------|------7----|

    3:00 x1   3:03 x4   3:07            x1   3:10                x1
G |---------|---------|--------------------|------------------------|
D |---------|---------|--------------------|------------------------|
A |-7-8^--5\|-7-8^--5-|---55--55--------55-|---55-77-55-88-77-55----|
E |------7--|------7--|-77--77--77-55-77---|-77------------------55-|

    3:13           x1   3:16               x1   3:19             x1
G |-------------------|-----------------------|-------------------|
D |-------------------|-----------------------|-------------------|
A |---55--55--55------|---55-77-55-88-77-55---|---55--55--55------|
E |-77--77--77--77-55-|-77------------------55|-77--77--77--77-55-|

    3:22                x1   3:25             x1   3:28                x1
G |------------------------|---------------------|------------------------|
D |------------------------|---------------------|------------------------|
A |---55-78-88----55-78-88-|---55--55------------|---55-78-88----55-78-88-|
E |-77---------77----------|-77--77--77-55-44-00-|-77---------77----------|

    3:31 x12
G |----------|
D |-3-3------|
A |-2-2------|
E |----------|

===============================
06. NURSING HOME
===============================


===============================
07. KAIF
===============================


===============================
08. VEX & SIOLENCE
===============================


===============================
09. 10/10
===============================


===============================
10. LINDA SUMMERTIME
===============================

This is a vocal song only.
 


Page Last Edited on 2008-04-26 21:39:27 UTC CST (4706)