AnimositisominA Tablature


These are NOT official tabs! All tabs are provided by members of our community. If you see any problems with the tabs we have presented please send us your version! You can PM them directly to me on our Forum under the username Krowe. I will go over them as well as a few other people and if we agree with your changes we will post them and credit you with it. Also, if you can tab out any of the various other instruments used on Ministry albums (like keyboards, synths, drums, harmonica, mandolin, saxophone or whatever) please send those in as well! Eventually we plan to branch this out to cover as much tablature as we can get for the band and people who wish to play their material. If you want to quickly come back to the top of the page just click on a song title.


AnimositisominA Tablature

01. Animosity    Guitar    Bass
02. Unsung    Guitar    Bass
03. Piss    Guitar    Bass
04. Lockbox    Guitar    Bass
05. Broken    Guitar    Bass
06. The Light Pours Out Of Me    Guitar    Bass
07. Shove    Guitar    Bass
08. Impossible    Guitar    Bass
09. Stolen    Guitar    Bass
10. Leper    Guitar    Bass

AnimositisominA Guitar Tablature


===============================
01. ANIMOSITY
===============================


===============================
02. UNSUNG
===============================


===============================
03. PISS
===============================


===============================
04. LOCKBOX
===============================

Tuning : Drop D (D,A,D,G,B,E)
Note: Listen and fiddle around with the song. I'm confident that if you read the tab, 
listen to the song and jam around with it, you'll get it. Or so I hope...
Tabbed by Lord Piko

Main Verse: 
E ------------------------------------------------- 
B ------------------------------------------------- 
G ------------------------------------------------- 
D 555555555---7/6---------------------------------- 
A 555555555---5/4---------------------------------- 
D 555555555----------------------------------------

Repeat a few times then add: 
E ------------------------------------------------- 
B ------------------------------------------------- 
G ------------------------------------------------- 
D ----7/6/7/8/7/6---------------------------------- 
A ----5/4/5/6/5/4---------------------------------- 
D ------------------------------------------------- 

Chorus: 
E ------------------------------------------------- 
B ------------------------------------------------- 
G ------------------------------------------------- 
D ------------------------------------------------- 
A --9--------7/6/7/8-------------------------------
D --7--------5/4/5/6-------------------------------

===============================
05. BROKEN
===============================


===============================
06. THE LIGHT POURS OUT OF ME
===============================

Tuning: Standard E (E,A,D,G,B,E)
Note: Might be a little off. Open for suggestions/corrections 
Tabbed by Lord Piko

Main verse: 
E ------------------------------------------------------------ 
B ------------------------------------------------------------ 
G ------------------------------------------------------------ 
D ------------------------------------------------------------ 
A ------------0--1--0--3-------------------------------------- 
E ----1--3---------------------------------------------------- 

repeat and then: 
E ------------------------------------------------------------ 
B ------------------------------------------------------------ 
G ------------------------------------------------------------ 
D ----------------------1---1--0--0--------------------------- 
A ----------0--1--0------------------3------------------------ 
E ---1--3----------------------------------------------------- 

Chorus: 
E ------------------------------------------------------------ 
B ------------------------------------------------------------ 
G ------------------------------------------------------------ 
D 3-----5---6----8--10---------------------------------------- 
A 1-----3---4----6---6---------------------------------------- 
E ------------------------------------------------------------ 

Then... 

D ------------------------------------------------------------ 
A ------------------------------------------------------------ 
E ------------------------------------------------------------ 

===============================
07. SHOVE
===============================

Tuning : Standard E (EADGBE)
Tabbed by Bone a.k.a Roman

Riff A (0:09)

E|-----------------------------------------------------------------------
B|-----------------------------------------------------------------------
G|--8--------8-7-6--------/11-------8-----/11-4-6-7----------------------
D|-----------------------------------------------------------------------
A|--6--------6-5-4--------/9--------6-----/9--2-4-5----------------------
E|-----------------------------------------------------------------------


Riff B (0:39, 1:28, 2:58)

E|-----------------------------------------------------------------------
B|-----------------------------------------------------------------------
G|--8-----/11-4---------7-6--------8-----/11-4-------4-6-7-6-------------
D|-----------------6------------------------------6----------------------
A|--6-----/9--2---------5-4--------6-----/9--2-------2-4-5-4-------------
E|-----------------4------------------------------4----------------------


Riff C (2:28, 4:17)

(Chorus)

E|-----------------------------------------------------------------------
B|-----------------------------------------------------------------------
G|-----------------------------------------------------------------------
D|--6-6-6-6-6-6---6-6-6-6-6-6---7-7-7-7-7-7-8----4--7--------------------
A|--6-6-6-6-6-6---6-6-6-6-6-6---7-7-7-7-7-7-8----4--7--------------------
E|--4-4-4-4-4-4---4-4-4-4-4-4---5-5-5-5-5-5-6----2--5--------------------


Riff D (2:48)

(Post Chorus)

E|-----------------------------------------------------------------------
B|-----------------------------------------------------------------------
G|-----------------------------------------------------------------------
D|--6-6-6-6-6-6----------------------------------------------------------
A|--6-6-6-6-6-6--(8x)----------------------------------------------------
E|--4-4-4-4-4-4----------------------------------------------------------


Riff E (5:01) 

(Together with Riff C)

E|-----------------------------------------------------------------------
B|-----------------------------------------------------------------------
G|--6/8--------6--------6/8-----(/11)------------------------------------
D|-----------------------------------------------------------------------
A|--4/6--------4--------4/6-----(/9-)------------------------------------
E|-----------------------------------------------------------------------
                                (only second time)


Verse 1 & 2

E|--14^------------------------------------------------------------------
B|-----------------------------------------------------------------------
G|-----------------------------------------------------------------------
D|-----------------------------------------------------------------------
A|-----------------------------------------------------------------------
E|-----------------------------------------------------------------------

===============================
08. IMPOSSIBLE
===============================


===============================
09. STOLEN
===============================


===============================
10. LEPER
===============================




AnimositisominA Bass Tablature


===============================
01. ANIMOSITY
===============================

Tuning: C# A D G
Tabbed by Gila

Main Riff
|----------------------------------------|
|----------------------------------------|
|-7-4------7-4------------7-4------7-4---|
|-----01--0---01--0555566-----01--0---01-|

Bridge Riff A
|-----------------------|
|-----------------------|
|-----------------------|
|-0h3-000---3h4-0h3-000-|

Bridge Riff B
|------------|
|------------|
|------------|
|-0h3p0-0000-|

Outro Riff
|-------------------------------------|
|-------------------------------------|
|-77777755-55559999-44444444-44444444-|
|-------------------------------------|

Ending Riff
|----------|
|----------|
|-44444444-|
|----------|

Structure

0:24 - 1:04 - Main Riff        x6
1:08 - 1:20 - Bridge Riff A    x4
1:21 - 2:02 - Main Riff        x6
2:16 - 2:41 - Bridge Riff B    x16
2:41 - 2:54 - Bridge Riff A    x4
2:56 - 3:37 - Main Riff        x6
3:51 - 4:03 - Bridge Riff A    x4
4:04 - 4:35 - Outro x4 + Ending x4

===============================
02. UNSUNG
===============================


===============================
03. PISS
===============================


===============================
04. LOCKBOX
===============================

Tuning : Drop D (D,A,D,G)
Tabbed by Gila

    0:25       x2   0:30                   x1
G |---------------|---------------------------|
D |---------------|---------------------------|
A |-----------5-4-|-----------5-4-5-4-5-4-5---|
D |-5-5-55555-----|-5-5-55555-----------------|

    0:35       x2   0:41                   x1
G |---------------|---------------------------|
D |---------------|---------------------------|
A |-----------5-4-|-----------5-4-5-4-5-6-5---|
D |-5-5-55555-----|-5-5-55555-----------------|

    0:46       x2   0:51                   x1
G |---------------|---------------------------|
D |---------------|---------------------------|
A |-----------5-4-|-----------5-4-5-4-5-4-5---|
D |-5-5-55555-----|-5-5-55555-----------------|

    0:56       x2   1:01                        1:06   x2
G |---------------|---------------------------|-----------|
D |---------------|---------------------------|-----------|
A |-----------5-4-|-----------5-4-5-4-5-6-5---|-5-4-5-6-5-|
D |-5-5-55555-----|-5-5-55555-----------------|-----------|

    1:11       x2   1:16                   x1
G |---------------|---------------------------|
D |---------------|---------------------------|
A |-----------5-4-|-----------5-4-5-4-5-6-5---|
D |-5-5-55555-----|-5-5-55555-----------------|

    1:21       x2   1:26
G |---------------|---------------------------|-----------|
D |---------------|---------------------------|-----------|
A |-----------5-4-|-----------5-4-5-4-5-4-5---|-5-4-5-6-5-|
D |-5-5-55555-----|-5-5-55555-----------------|-----------|

    1:34x4   1:42x4   1:49x4   1:57x4   2:35   x4
G |--------|--------|--------|--------|-----------|
D |--------|--------|--------|--------|-----------|
A |--------|--------|--------|--------|-5-4-5-6-5-|
D |-2-/14\-|-0-/12\-|-2-/14\-|-0-/12\-|-----------|

    2:45       x2   2:51                   x1
G |---------------|---------------------------|
D |---------------|---------------------------|
A |-----------5-4-|-----------5-4-5-4-5-4-5---|
D |-5-5-55555-----|-5-5-55555-----------------|

    2:56       x2   3:01                   x1
G |---------------|---------------------------|
D |---------------|---------------------------|
A |-----------5-4-|-----------5-4-5-4-5-4-5---|
D |-5-5-55555-----|-5-5-55555-----------------|

    3:06       x2   3:11                   x1
G |---------------|---------------------------|
D |---------------|---------------------------|
A |-----------5-4-|-----------5-4-5-4-5-4-5---|
D |-5-5-55555-----|-5-5-55555-----------------|

    3:16       x2   3:21                   x1
G |---------------|---------------------------|
D |---------------|---------------------------|
A |-----------5-4-|-----------5-4-5-4-5-6-5---|
D |-5-5-55555-----|-5-5-55555-----------------|

    3:27x4   3:34x4   3:42x4   3:49x4
G |--------|--------|--------|--------|
D |--------|--------|--------|--------|
A |--------|--------|--------|--------|
D |-2-/14\-|-0-/12\-|-2-/14\-|-0-/12\-|

    3:57x4   4:05x4   4:12x4   4:20x13
G |--------|--------|--------|--------|
D |--------|--------|--------|--------|
A |--------|--------|--------|--------|
D |-2-/14\-|-0-/12\-|-2-/14\-|-0-/12\-|

===============================
05. BROKEN
===============================


===============================
06. THE LIGHT POURS OUT OF ME
===============================


===============================
07. SHOVE
===============================

Tuning : D#,G#,C#,F#
Tabbed by Gila

   Riff A
F#|----------------------------------------------------|
C#|----------------------------------------------------|
G#|-7p0-00-00-00-6p0-00-00-00-5p0-00-00-00-00-00-00-33-|
D#|----------------------------------------------------|

    Riff B
F#|----------------------------------------------------|
C#|----------------------------------------------------|
G#|-7p0-00-00-00-6p0-00-00-00-5p0-00-00-00-00-33-33-33-|
D#|----------------------------------------------------|

    Chorus                           Bridge    Comeback
F#|-------------------------------||--------||-----------------|
C#|-------------------------------||--------||-----------------|
G#|-000000-000000-111111-3333---1-||-000000-||-111111-3333---1-|
D#|---------------------------3---||--------||-------------3---|

0:30 - Riff A   x2
0:49 - Riff B
0:59 - Riff A
1:09 - Riff B   x2
1:29 - Riff A
1:39 - Riff B
1:49 - Riff A   x2
2:09 - Riff B   x2
2:29 - Chorus   x4
2:49 - Bridge   x4
2:58 - Riff A
3:08 - Riff B
3:18 - Riff A
3:28 - Riff B
3:38 - Riff A   x2
3:58 - Riff B   x2
4:18 - Chorus   x8
4:59 - Comeback
5:02 - Chorus   x8

===============================
08. IMPOSSIBLE
===============================


===============================
09. STOLEN
===============================


===============================
10. LEPER
===============================

 


Page Last Edited on 2008-08-15 11:41:08 UTC CST (4521)